  0
SECTION
  2
HEADER
  9
$ACADVER
  1
AC1009
  9
$INSBASE
 10
-66.16263458793015
 20
-15.43523294757665
 30
0.0
  9
$EXTMIN
 10
-66.16263458793015
 20
-15.43523294757665
 30
0.0
  9
$EXTMAX
 10
592.5476736445012
 20
104.9300228576624
 30
0.0
  9
$LIMMIN
 10
0.0
 20
0.0
  9
$LIMMAX
 10
420.0
 20
297.0
  9
$ORTHOMODE
 70
     0
  9
$REGENMODE
 70
     0
  9
$FILLMODE
 70
     1
  9
$QTEXTMODE
 70
     0
  9
$MIRRTEXT
 70
     0
  9
$DRAGMODE
 70
     2
  9
$LTSCALE
 40
1.0
  9
$OSMODE
 70
     0
  9
$ATTMODE
 70
     1
  9
$TEXTSIZE
 40
3.5
  9
$TRACEWID
 40
0.1
  9
$TEXTSTYLE
  7
STANDARD
  9
$CLAYER
  8
0
  9
$CELTYPE
  6
BYLAYER
  9
$CECOLOR
 62
   256
  9
$DIMSCALE
 40
1.0
  9
$DIMASZ
 40
2.0
  9
$DIMEXO
 40
1.0
  9
$DIMDLI
 40
8.0
  9
$DIMRND
 40
0.0
  9
$DIMDLE
 40
0.0
  9
$DIMEXE
 40
2.0
  9
$DIMTP
 40
0.1
  9
$DIMTM
 40
0.1
  9
$DIMTXT
 40
3.5
  9
$DIMCEN
 40
2.0
  9
$DIMTSZ
 40
0.0
  9
$DIMTOL
 70
     0
  9
$DIMLIM
 70
     0
  9
$DIMTIH
 70
     0
  9
$DIMTOH
 70
     0
  9
$DIMSE1
 70
     0
  9
$DIMSE2
 70
     0
  9
$DIMTAD
 70
     1
  9
$DIMZIN
 70
     0
  9
$DIMBLK
  1

  9
$DIMASO
 70
     1
  9
$DIMSHO
 70
     0
  9
$DIMPOST
  1

  9
$DIMAPOST
  1

  9
$DIMALT
 70
     0
  9
$DIMALTD
 70
     2
  9
$DIMALTF
 40
25.39999999999999
  9
$DIMLFAC
 40
1.0
  9
$DIMTOFL
 70
     0
  9
$DIMTVP
 40
0.0
  9
$DIMTIX
 70
     0
  9
$DIMSOXD
 70
     0
  9
$DIMSAH
 70
     0
  9
$DIMBLK1
  1

  9
$DIMBLK2
  1

  9
$DIMSTYLE
  2
*UNNAMED
  9
$DIMCLRD
 70
     0
  9
$DIMCLRE
 70
     0
  9
$DIMCLRT
 70
     0
  9
$DIMTFAC
 40
1.0
  9
$DIMGAP
 40
0.09
  9
$LUNITS
 70
     2
  9
$LUPREC
 70
     3
  9
$SKETCHINC
 40
0.1
  9
$FILLETRAD
 40
20.0
  9
$AUNITS
 70
     0
  9
$AUPREC
 70
     1
  9
$MENU
  1

  9
$ELEVATION
 40
0.0
  9
$PELEVATION
 40
0.0
  9
$THICKNESS
 40
0.0
  9
$LIMCHECK
 70
     0
  9
$BLIPMODE
 70
     0
  9
$CHAMFERA
 40
0.0
  9
$CHAMFERB
 40
0.0
  9
$SKPOLY
 70
     1
  9
$TDCREATE
 40
2448565.637635300
  9
$TDUPDATE
 40
2449393.433094444
  9
$TDINDWG
 40
0.0003496528
  9
$TDUSRTIMER
 40
0.0003496528
  9
$USRTIMER
 70
     1
  9
$ANGBASE
 50
0.0
  9
$ANGDIR
 70
     0
  9
$PDMODE
 70
     0
  9
$PDSIZE
 40
0.0
  9
$PLINEWID
 40
0.0
  9
$COORDS
 70
     2
  9
$SPLFRAME
 70
     0
  9
$SPLINETYPE
 70
     6
  9
$SPLINESEGS
 70
     8
  9
$ATTDIA
 70
     1
  9
$ATTREQ
 70
     1
  9
$HANDLING
 70
     0
  9
$HANDSEED
  5
109
  9
$SURFTAB1
 70
     6
  9
$SURFTAB2
 70
     6
  9
$SURFTYPE
 70
     6
  9
$SURFU
 70
     6
  9
$SURFV
 70
     6
  9
$UCSNAME
  2

  9
$UCSORG
 10
0.0
 20
0.0
 30
0.0
  9
$UCSXDIR
 10
1.0
 20
0.0
 30
0.0
  9
$UCSYDIR
 10
0.0
 20
1.0
 30
0.0
  9
$PUCSNAME
  2

  9
$PUCSORG
 10
0.0
 20
0.0
 30
0.0
  9
$PUCSXDIR
 10
1.0
 20
0.0
 30
0.0
  9
$PUCSYDIR
 10
0.0
 20
1.0
 30
0.0
  9
$USERI1
 70
     0
  9
$USERI2
 70
     3
  9
$USERI3
 70
    15
  9
$USERI4
 70
     0
  9
$USERI5
 70
     0
  9
$USERR1
 40
1.0
  9
$USERR2
 40
1.0
  9
$USERR3
 40
0.0
  9
$USERR4
 40
1.0
  9
$USERR5
 40
0.0
  9
$WORLDVIEW
 70
     1
  9
$SHADEDGE
 70
     3
  9
$SHADEDIF
 70
    70
  9
$TILEMODE
 70
     1
  9
$MAXACTVP
 70
    16
  9
$PINSBASE
 10
0.0
 20
0.0
 30
0.0
  9
$PLIMCHECK
 70
     0
  9
$PEXTMIN
 10
1.000000000000000E+20
 20
1.000000000000000E+20
 30
1.000000000000000E+20
  9
$PEXTMAX
 10
-1.000000000000000E+20
 20
-1.000000000000000E+20
 30
-1.000000000000000E+20
  9
$PLIMMIN
 10
0.0
 20
0.0
  9
$PLIMMAX
 10
12.0
 20
9.0
  9
$UNITMODE
 70
     0
  9
$VISRETAIN
 70
     0
  9
$PLINEGEN
 70
     0
  9
$PSLTSCALE
 70
     0
  9
$TREEDEPTH
 70
  3020
  9
$DWGCODEPAGE
  3
undefined
  0
ENDSEC
  0
SECTION
  2
TABLES
  0
TABLE
  2
VPORT
 70
     2
  0
VPORT
  2
*ACTIVE
 70
     0
 10
0.0
 20
0.0
 11
1.0
 21
1.0
 12
263.1925195282855
 22
242.74571413505
 13
0.0
 23
0.0
 14
1.0
 24
1.0
 15
10.0
 25
10.0
 16
0.0
 26
0.0
 36
1.0
 17
0.0
 27
0.0
 37
0.0
 40
516.3618941652533
 41
1.275675675675675
 42
50.0
 43
0.0
 44
0.0
 50
0.0
 51
0.0
 71
     0
 72
 20000
 73
     1
 74
     0
 75
     0
 76
     0
 77
     0
 78
     0
  0
ENDTAB
  0
TABLE
  2
LTYPE
 70
     3
  0
LTYPE
  2
AUSGEZOGEN
 70
    64
  3
Solid line
 72
    65
 73
     0
 40
0.0
  0
LTYPE
  2
ITEM-STRICHGR
 70
    64
  3
-- -- -- -- -- 
 72
    65
 73
     2
 40
6.25
 49
5.0
 49
-1.25
  0
LTYPE
  2
ITEM-STRICHPGR
 70
    64
  3
____ . ____ . ____ . ____ . ____ . ____ . ____
 72
    65
 73
     4
 40
15.0
 49
10.0
 49
-2.5
 49
0.0
 49
-2.5
  0
ENDTAB
  0
TABLE
  2
LAYER
 70
     6
  0
LAYER
  2
0
 70
     0
 62
     7
  6
AUSGEZOGEN
  0
LAYER
  2
ITEM_50
 70
    64
 62
     7
  6
AUSGEZOGEN
  0
LAYER
  2
ITEM_25
 70
    64
 62
     3
  6
AUSGEZOGEN
  0
LAYER
  2
ITEM_HILFE
 70
    64
 62
     3
  6
AUSGEZOGEN
  0
LAYER
  2
ITEM_STPG
 70
    64
 62
     4
  6
ITEM-STRICHPGR
  0
LAYER
  2
ITEM_GSTRG
 70
    64
 62
     6
  6
ITEM-STRICHGR
  0
ENDTAB
  0
TABLE
  2
STYLE
 70
     1
  0
STYLE
  2
STANDARD
 70
     0
 40
0.0
 41
1.0
 50
0.0
 71
     0
 42
3.5
  3
iso
  4

  0
ENDTAB
  0
TABLE
  2
VIEW
 70
     0
  0
ENDTAB
  0
TABLE
  2
UCS
 70
     0
  0
ENDTAB
  0
TABLE
  2
APPID
 70
     1
  0
APPID
  2
ACAD
 70
    64
  0
ENDTAB
  0
TABLE
  2
DIMSTYLE
 70
     0
  0
ENDTAB
  0
ENDSEC
  0
SECTION
  2
BLOCKS
  0
ENDSEC
  0
SECTION
  2
ENTITIES
  0
POINT
  8
ITEM_HILFE
 10
544.3324294672131
 20
34.72679907396965
 30
0.0
  0
LINE
  8
ITEM_50
 10
510.7914098047119
 20
64.72679907396479
 30
0.0
 11
501.3324294672082
 21
64.72679907396477
 31
0.0
  0
LINE
  8
ITEM_50
 10
497.3324294672082
 20
60.72679907396477
 30
0.0
 11
497.3324294672082
 21
8.726799073964784
 31
0.0
  0
LINE
  8
ITEM_50
 10
501.3324294672082
 20
4.726799073964784
 30
0.0
 11
510.7914098047206
 21
4.726799073964798
 31
0.0
  0
ARC
  8
ITEM_50
 10
501.3324294672082
 20
60.72679907396477
 30
0.0
 40
4.0
 50
90.00000000000012
 51
180.0
  0
ARC
  8
ITEM_50
 10
501.3324294672082
 20
8.726799073964784
 30
0.0
 40
4.0
 50
180.0
 51
270.0
  0
ARC
  8
ITEM_50
 10
587.332429467218
 20
8.726799073964784
 30
0.0
 40
4.0
 50
270.0
 51
0.0
  0
ARC
  8
ITEM_50
 10
587.332429467218
 20
60.72679907396477
 30
0.0
 40
4.0
 50
0.0
 51
89.99999999999987
  0
LINE
  8
ITEM_50
 10
587.332429467218
 20
4.726799073964784
 30
0.0
 11
577.8734491297057
 21
4.726799073964798
 31
0.0
  0
LINE
  8
ITEM_50
 10
591.332429467218
 20
60.72679907396477
 30
0.0
 11
591.332429467218
 21
8.726799073964784
 31
0.0
  0
LINE
  8
ITEM_50
 10
577.8734491297143
 20
64.72679907396479
 30
0.0
 11
587.332429467218
 21
64.72679907396477
 31
0.0
  0
POINT
  8
ITEM_HILFE
 10
517.8159251727095
 20
8.210294779481614
 30
0.0
  0
POINT
  8
ITEM_HILFE
 10
570.8489337616895
 20
8.210294779456532
 30
0.0
  0
POINT
  8
ITEM_HILFE
 10
570.8489337617005
 20
61.24330336847262
 30
0.0
  0
POINT
  8
ITEM_HILFE
 10
517.815925172699
 20
61.24330336844707
 30
0.0
  0
LINE
  8
ITEM_STPG
 10
544.3324294672131
 20
83.36412083192473
 30
0.0
 11
544.3324294672131
 21
-13.93523294730476
 31
0.0
  0
LINE
  8
ITEM_STPG
 10
592.5476736445012
 20
34.72679907396977
 30
0.0
 11
496.2107817981044
 21
34.72679907396977
 31
0.0
  0
LINE
  8
ITEM_50
 10
549.6239320891074
 20
36.22679907423898
 30
0.0
 11
551.1698266326204
 21
36.22679907423898
 31
0.0
  0
LINE
  8
ITEM_50
 10
549.6239320892839
 20
33.22679907423943
 30
0.0
 11
551.1698266327568
 21
33.22679907423943
 31
0.0
  0
ARC
  8
ITEM_50
 10
544.3324294672122
 20
34.72679907397068
 30
0.0
 40
6.999999999898071
 50
347.6263748858785
 51
12.37362511865778
  0
LINE
  8
ITEM_50
 10
545.6791426722513
 20
40.05937476885864
 30
0.0
 11
546.4520899440069
 21
41.39815871511072
 31
0.0
  0
ARC
  8
ITEM_50
 10
544.3324294672131
 20
34.72679907396931
 30
0.0
 40
6.999999999898071
 50
47.62637488587852
 51
72.37362511865778
  0
LINE
  8
ITEM_50
 10
548.2772188836927
 20
38.55937476900962
 30
0.0
 11
549.0501661554292
 21
39.89815871522895
 31
0.0
  0
LINE
  8
ITEM_50
 10
540.3876400503561
 20
38.55937476858989
 30
0.0
 11
539.6146927786005
 21
39.89815871484333
 31
0.0
  0
ARC
  8
ITEM_50
 10
544.3324294672122
 20
34.72679907397159
 30
0.0
 40
6.999999999898071
 50
107.6263748858785
 51
132.3736251186577
  0
LINE
  8
ITEM_50
 10
542.9857162616219
 20
40.05937476874177
 30
0.0
 11
542.2127689898854
 21
41.39815871496111
 31
0.0
  0
LINE
  8
ITEM_50
 10
539.0409268453188
 20
33.22679907370283
 30
0.0
 11
537.4950323018058
 21
33.22679907370283
 31
0.0
  0
ARC
  8
ITEM_50
 10
544.3324294672122
 20
34.72679907397068
 30
0.0
 40
6.999999999898071
 50
167.6263748858785
 51
192.3736251186577
  0
LINE
  8
ITEM_50
 10
539.0409268451423
 20
36.22679907370283
 30
0.0
 11
537.4950323016694
 21
36.22679907370283
 31
0.0
  0
LINE
  8
ITEM_50
 10
542.9857162621749
 20
29.39422337908362
 30
0.0
 11
542.2127689904193
 21
28.05543943283109
 31
0.0
  0
ARC
  8
ITEM_50
 10
544.3324294672122
 20
34.72679907397068
 30
0.0
 40
6.999999999898071
 50
227.6263748858785
 51
252.3736251186578
  0
LINE
  8
ITEM_50
 10
540.3876400507335
 20
30.89422337893265
 30
0.0
 11
539.614692778997
 21
29.55543943271331
 31
0.0
  0
LINE
  8
ITEM_50
 10
548.2772188840701
 20
30.89422337935192
 30
0.0
 11
549.0501661558266
 21
29.55543943310075
 31
0.0
  0
ARC
  8
ITEM_50
 10
544.3324294672122
 20
34.72679907397159
 30
0.0
 40
6.999999999898071
 50
287.6263748858784
 51
312.3736251186577
  0
LINE
  8
ITEM_50
 10
545.6791426728043
 20
29.39422337920004
 30
0.0
 11
546.4520899445417
 21
28.05543943298252
 31
0.0
  0
ARC
  8
ITEM_50
 10
544.3324294672122
 20
34.72679907397068
 30
0.0
 40
5.499999999847904
 50
15.82662013523725
 51
44.17337987011207
  0
ARC
  8
ITEM_50
 10
544.3324294672131
 20
34.72679907396931
 30
0.0
 40
5.499999999847904
 50
75.82662013523722
 51
104.173379870112
  0
ARC
  8
ITEM_50
 10
544.3324294672122
 20
34.72679907397159
 30
0.0
 40
5.499999999847904
 50
135.8266201352372
 51
164.1733798701121
  0
ARC
  8
ITEM_50
 10
544.3324294672122
 20
34.72679907397068
 30
0.0
 40
5.499999999847904
 50
195.8266201352372
 51
224.1733798701121
  0
ARC
  8
ITEM_50
 10
544.3324294672122
 20
34.72679907397068
 30
0.0
 40
5.499999999847904
 50
255.8266201352372
 51
284.173379870112
  0
ARC
  8
ITEM_50
 10
544.3324294672122
 20
34.72679907397159
 30
0.0
 40
5.499999999847904
 50
315.8266201352371
 51
344.173379870112
  0
POINT
  8
ITEM_HILFE
 10
544.3324294672131
 20
34.72679907396977
 30
0.0
  0
ARC
  8
ITEM_25
 10
570.8489337616895
 20
8.210294779456532
 30
0.0
 40
3.99999999999996
 50
171.0
 51
99.00000000000029
  0
CIRCLE
  8
ITEM_50
 10
570.8489337616895
 20
8.210294779456532
 30
0.0
 40
3.325
  0
ARC
  8
ITEM_25
 10
517.8159251727095
 20
8.210294779481614
 30
0.0
 40
3.99999999999996
 50
171.0
 51
99.00000000000029
  0
CIRCLE
  8
ITEM_50
 10
517.8159251727095
 20
8.210294779481614
 30
0.0
 40
3.325
  0
ARC
  8
ITEM_25
 10
517.815925172699
 20
61.24330336844707
 30
0.0
 40
3.999999999999957
 50
171.0000000000001
 51
99.00000000000029
  0
CIRCLE
  8
ITEM_50
 10
517.815925172699
 20
61.24330336844707
 30
0.0
 40
3.325
  0
ARC
  8
ITEM_25
 10
570.8489337617005
 20
61.24330336847262
 30
0.0
 40
3.999999999999957
 50
171.0000000000001
 51
99.00000000000029
  0
CIRCLE
  8
ITEM_50
 10
570.8489337617005
 20
61.24330336847262
 30
0.0
 40
3.325
  0
LINE
  8
ITEM_50
 10
557.8035425896044
 20
87.81930239357211
 30
0.0
 11
559.6853286524253
 21
92.98946710941709
 31
0.0
  0
LINE
  8
ITEM_50
 10
562.8896105627043
 20
94.48364830306769
 30
0.0
 11
568.4959864018694
 21
92.44309437550248
 31
0.0
  0
LINE
  8
ITEM_50
 10
569.9784668260914
 20
89.20732470213749
 30
0.0
 11
568.0398197360619
 21
84.09570328391728
 31
0.0
  0
ARC
  8
ITEM_50
 10
567.6409360435553
 20
90.09386282353773
 30
0.0
 40
2.5
 50
339.2301342979779
 51
70.00000000000009
  0
ARC
  8
ITEM_50
 10
562.0345602043902
 20
92.13441675110291
 30
0.0
 40
2.5
 50
70.00000000000025
 51
160.0000000000003
  0
LINE
  8
ITEM_50
 10
568.4959864018693
 20
92.44309437550253
 30
0.0
 11
570.5646662362989
 21
98.02786405834751
 31
0.0
  0
LINE
  8
ITEM_50
 10
562.8896105627043
 20
94.48364830306769
 30
0.0
 11
564.958290397134
 21
100.0684179859127
 31
0.0
  0
ARC
  8
ITEM_25
 10
565.4903260840578
 20
99.87477283230532
 30
0.0
 40
0.5999999999996318
 50
160.0
 51
249.9999999999999
  0
ARC
  8
ITEM_25
 10
565.4903260840578
 20
99.87477283230532
 30
0.0
 40
0.5999999999996318
 50
70.0
 51
160.0
  0
ARC
  8
ITEM_25
 10
570.0008506638276
 20
98.23307614434298
 30
0.0
 40
0.5999999999996318
 50
340.0
 51
70.0
  0
ARC
  8
ITEM_25
 10
568.461760018863
 20
94.00445935080898
 30
0.0
 40
5.099999999996839
 50
70.0
 51
98.07248693585312
  0
ARC
  8
ITEM_25
 10
563.9512354390934
 20
95.64615603877123
 30
0.0
 40
5.099999999996839
 50
41.92751306414682
 51
70.0
  0
ARC
  8
ITEM_25
 10
567.0294167290225
 20
104.1033896258392
 30
0.0
 40
5.099999999996839
 50
249.9999999999999
 51
278.0724869358531
  0
LINE
  8
ITEM_50
 10
569.7289172219047
 20
83.48092207629781
 30
0.0
 11
566.2819990123767
 21
74.01059212889245
 31
0.0
  0
LINE
  8
ITEM_50
 10
552.7692191254749
 20
78.9288417899144
 30
0.0
 11
556.2161373350004
 21
88.39917173731197
 31
0.0
  0
LINE
  8
ITEM_50
 10
556.2161373350004
 20
88.39917173731197
 30
0.0
 11
569.7289172219047
 21
83.48092207629781
 31
0.0
  0
LINE
  8
ITEM_50
 10
566.3507222501998
 20
84.71048449154369
 30
0.0
 11
563.0523380853687
 21
75.64824847801563
 31
0.0
  0
LINE
  8
ITEM_50
 10
559.5943323067475
 20
87.16960932205083
 30
0.0
 11
556.2959481419181
 21
78.1073733085274
 31
0.0
  0
CIRCLE
  8
ITEM_50
 10
544.3324294672131
 20
34.72679907396977
 30
0.0
 40
43.0
  0
CIRCLE
  8
ITEM_50
 10
544.3324294672131
 20
34.72679907396977
 30
0.0
 40
45.0
  0
LINE
  8
ITEM_STPG
 10
31.06027376849957
 20
33.22679907369473
 30
0.0
 11
474.1594104305049
 21
33.2267990736947
 31
0.0
  0
POINT
  8
ITEM_HILFE
 10
467.9590130811865
 20
33.2267990736947
 30
0.0
  0
POINT
  8
ITEM_HILFE
 10
82.95901308118658
 20
33.22679907369465
 30
0.0
  0
POINT
  8
ITEM_HILFE
 10
38.95901308118658
 20
33.22679907369465
 30
0.0
  0
LINE
  8
ITEM_GSTRG
 10
78.95901308118658
 20
30.76193248673988
 30
0.0
 11
38.95901308118658
 21
30.76193248673988
 31
0.0
  0
LINE
  8
ITEM_GSTRG
 10
38.95901308118658
 20
30.24656860547813
 30
0.0
 11
78.95901308118658
 21
30.24656860547813
 31
0.0
  0
LINE
  8
ITEM_GSTRG
 10
38.95901308118658
 20
28.26417022267699
 30
0.0
 11
78.95901308118658
 21
28.26417022267698
 31
0.0
  0
LINE
  8
ITEM_GSTRG
 10
78.95901308118658
 20
27.85436260154759
 30
0.0
 11
38.95901308118658
 21
27.85436260154776
 31
0.0
  0
LINE
  8
ITEM_GSTRG
 10
38.95901308118658
 20
26.6543626015476
 30
0.0
 11
78.95901308118658
 21
26.6543626015476
 31
0.0
  0
LINE
  8
ITEM_GSTRG
 10
38.95901308118658
 20
31.72679907368731
 30
0.0
 11
78.95901308118658
 21
31.72679907368731
 31
0.0
  0
LINE
  8
ITEM_GSTRG
 10
38.95901308118658
 20
34.72679907369368
 30
0.0
 11
78.95901308118658
 21
34.72679907369368
 31
0.0
  0
LINE
  8
ITEM_GSTRG
 10
38.95901308118658
 20
26.6543626015476
 30
0.0
 11
38.95901308118658
 21
39.79923554583339
 31
0.0
  0
LINE
  8
ITEM_GSTRG
 10
78.95901308118658
 20
35.69166566064112
 30
0.0
 11
38.95901308118658
 21
35.69166566064112
 31
0.0
  0
LINE
  8
ITEM_GSTRG
 10
38.95901308118658
 20
39.79923554583339
 30
0.0
 11
78.95901308118658
 21
39.79923554583339
 31
0.0
  0
LINE
  8
ITEM_GSTRG
 10
78.95901308118658
 20
38.5992355458334
 30
0.0
 11
38.95901308118658
 21
38.59923554583323
 31
0.0
  0
LINE
  8
ITEM_GSTRG
 10
38.95901308118658
 20
38.189427924704
 30
0.0
 11
78.95901308118658
 21
38.189427924704
 31
0.0
  0
LINE
  8
ITEM_GSTRG
 10
38.95901308118658
 20
36.20702954190286
 30
0.0
 11
78.95901308118658
 21
36.20702954190278
 31
0.0
  0
LINE
  8
ITEM_GSTRG
 10
78.95901308118658
 20
45.72679907369465
 30
0.0
 11
79.95901308118659
 21
45.72679907369465
 31
0.0
  0
LINE
  8
ITEM_GSTRG
 10
78.95901308118658
 20
20.72679907369463
 30
0.0
 11
78.95901308118658
 21
45.72679907369465
 31
0.0
  0
LINE
  8
ITEM_GSTRG
 10
79.95901308118659
 20
20.72679907369463
 30
0.0
 11
78.95901308118658
 21
20.72679907369463
 31
0.0
  0
LINE
  8
ITEM_GSTRG
 10
79.95901308118659
 20
5.726799073694635
 30
0.0
 11
82.95901308118655
 21
5.726799073694635
 31
0.0
  0
LINE
  8
ITEM_GSTRG
 10
79.95901308118659
 20
60.72679907369462
 30
0.0
 11
79.95901308118659
 21
5.726799073694635
 31
0.0
  0
LINE
  8
ITEM_GSTRG
 10
82.95901308118658
 20
60.72679907369462
 30
0.0
 11
79.95901308118659
 21
60.72679907369462
 31
0.0
  0
LINE
  8
ITEM_50
 10
84.95901308118661
 20
78.22679907369462
 30
0.0
 11
84.95901308118655
 21
-11.77320092630534
 31
0.0
  0
LINE
  8
ITEM_50
 10
465.9590130811865
 20
77.2267990736947
 30
0.0
 11
465.9590130811865
 21
-10.77320092630527
 31
0.0
  0
LINE
  8
ITEM_50
 10
164.9590130811866
 20
74.72679907369465
 30
0.0
 11
164.9590130811866
 21
-8.273200926305349
 31
0.0
  0
LINE
  8
ITEM_50
 10
407.9590130811865
 20
-8.273200926305307
 30
0.0
 11
110.9590130811865
 21
-8.273200926305349
 31
0.0
  0
LINE
  8
ITEM_50
 10
407.9590130811865
 20
74.72679907369467
 30
0.0
 11
110.9590130811865
 21
74.72679907369465
 31
0.0
  0
LINE
  8
ITEM_50
 10
344.3640130811999
 20
87.72679907369442
 30
0.0
 11
344.3640130811851
 21
74.72679907369453
 31
0.0
  0
LINE
  8
ITEM_50
 10
351.5540130811999
 20
87.72679907369914
 30
0.0
 11
351.5540130811851
 21
74.72679907369925
 31
0.0
  0
LINE
  8
ITEM_50
 10
340.7690130811776
 20
87.72679907369203
 30
0.0
 11
355.1490130811773
 21
87.72679907370147
 31
0.0
  0
LINE
  8
ITEM_50
 10
340.7690130811862
 20
74.7267990736922
 30
0.0
 11
340.7690130811776
 21
87.72679907369203
 31
0.0
  0
LINE
  8
ITEM_50
 10
355.1490130811862
 20
74.72679907370164
 30
0.0
 11
340.7690130811862
 21
74.7267990736922
 31
0.0
  0
LINE
  8
ITEM_50
 10
355.1490130811773
 20
87.72679907370147
 30
0.0
 11
355.1490130811862
 21
74.72679907370164
 31
0.0
  0
ARC
  8
ITEM_25
 10
345.5590130811848
 20
106.182296106919
 30
0.0
 40
5.099999999996839
 50
269.9999999999999
 51
298.0724869358531
  0
ARC
  8
ITEM_25
 10
345.5590130811848
 20
97.18229610692458
 30
0.0
 40
5.099999999996839
 50
61.92751306414677
 51
89.99999999999994
  0
ARC
  8
ITEM_25
 10
350.3590130811819
 20
97.18229610692455
 30
0.0
 40
5.099999999996839
 50
89.99999999999994
 51
118.072486935853
  0
ARC
  8
ITEM_25
 10
350.3590130811819
 20
101.6822961069217
 30
0.0
 40
0.5999999999996318
 50
0.0
 51
89.99999999999994
  0
ARC
  8
ITEM_25
 10
345.5590130811847
 20
101.6822961069218
 30
0.0
 40
0.5999999999996318
 50
89.99999999999994
 51
179.9999999999999
  0
ARC
  8
ITEM_25
 10
345.5590130811847
 20
101.6822961069218
 30
0.0
 40
0.5999999999996318
 50
179.9999999999999
 51
269.9999999999999
  0
LINE
  8
ITEM_50
 10
344.9590130811818
 20
95.72679907369675
 30
0.0
 11
344.9928325289965
 21
101.6822961069216
 31
0.0
  0
LINE
  8
ITEM_50
 10
350.9251936333672
 20
95.72679907369686
 30
0.0
 11
350.9590130811818
 21
101.6822961069217
 31
0.0
  0
ARC
  8
ITEM_50
 10
344.9590130811818
 20
93.22679907369672
 30
0.0
 40
2.5
 50
90.00000000000019
 51
180.0000000000002
  0
ARC
  8
ITEM_50
 10
350.9251936333673
 20
93.22679907369683
 30
0.0
 40
2.5
 50
359.2301342979778
 51
90.00000000000005
  0
LINE
  8
ITEM_50
 10
353.4249679559213
 20
93.19320835624282
 30
0.0
 11
353.3515130811988
 21
87.72679907370033
 31
0.0
  0
LINE
  8
ITEM_50
 10
344.9590130811818
 20
95.72679907369675
 30
0.0
 11
350.9251936333673
 21
95.72679907369686
 31
0.0
  0
LINE
  8
ITEM_50
 10
342.4590130811818
 20
87.7248247030553
 30
0.0
 11
342.4590130811818
 21
93.22679907369675
 31
0.0
  0
LINE
  8
ITEM_50
 10
110.9590130811865
 20
78.22679907369465
 30
0.0
 11
84.95901308118661
 21
78.22679907369462
 31
0.0
  0
LINE
  8
ITEM_50
 10
84.95901308118661
 20
78.22679907369462
 30
0.0
 11
82.95901308118661
 21
76.22679907369462
 31
0.0
  0
LINE
  8
ITEM_50
 10
82.95901308118661
 20
76.22679907369462
 30
0.0
 11
82.95901308118655
 21
-9.773200926305349
 31
0.0
  0
LINE
  8
ITEM_50
 10
82.95901308118655
 20
-9.773200926305349
 30
0.0
 11
84.95901308118655
 21
-11.77320092630534
 31
0.0
  0
LINE
  8
ITEM_50
 10
84.95901308118655
 20
-11.77320092630534
 30
0.0
 11
110.9590130811865
 21
-11.77320092630534
 31
0.0
  0
LINE
  8
ITEM_50
 10
110.9590130811865
 20
-11.77320092630534
 30
0.0
 11
110.9590130811865
 21
78.22679907369465
 31
0.0
  0
LINE
  8
ITEM_50
 10
373.9590130811865
 20
63.22679907369467
 30
0.0
 11
346.9590130811865
 21
63.22679907369467
 31
0.0
  0
ARC
  8
ITEM_50
 10
346.9590130811865
 20
59.22679907369467
 30
0.0
 40
4.0
 50
90.0
 51
180.0
  0
LINE
  8
ITEM_50
 10
342.9590130811865
 20
59.22679907369467
 30
0.0
 11
342.9590130811865
 21
7.226799073694678
 31
0.0
  0
ARC
  8
ITEM_50
 10
346.9590130811865
 20
7.226799073694678
 30
0.0
 40
4.0
 50
180.0
 51
270.0
  0
LINE
  8
ITEM_50
 10
346.9590130811865
 20
3.226799073694678
 30
0.0
 11
373.9590130811865
 21
3.226799073694678
 31
0.0
  0
ARC
  8
ITEM_50
 10
373.9590130811865
 20
7.226799073694678
 30
0.0
 40
4.0
 50
270.0
 51
0.0
  0
LINE
  8
ITEM_50
 10
377.9590130811865
 20
7.226799073694678
 30
0.0
 11
377.9590130811865
 21
59.22679907369467
 31
0.0
  0
ARC
  8
ITEM_50
 10
373.9590130811865
 20
59.22679907369467
 30
0.0
 40
4.0
 50
0.0
 51
90.0
  0
LINE
  8
ITEM_50
 10
465.9590130811865
 20
77.2267990736947
 30
0.0
 11
407.9590130811865
 21
77.2267990736947
 31
0.0
  0
LINE
  8
ITEM_50
 10
407.9590130811865
 20
77.2267990736947
 30
0.0
 11
407.9590130811865
 21
-10.7732009263053
 31
0.0
  0
LINE
  8
ITEM_50
 10
407.9590130811865
 20
-10.7732009263053
 30
0.0
 11
465.9590130811865
 21
-10.77320092630527
 31
0.0
  0
LINE
  8
ITEM_50
 10
465.9590130811865
 20
-10.77320092630527
 30
0.0
 11
467.9590130811865
 21
-8.773200926305278
 31
0.0
  0
LINE
  8
ITEM_50
 10
467.9590130811865
 20
-8.773200926305278
 30
0.0
 11
467.9590130811865
 21
75.2267990736947
 31
0.0
  0
LINE
  8
ITEM_50
 10
467.9590130811865
 20
75.2267990736947
 30
0.0
 11
465.9590130811865
 21
77.2267990736947
 31
0.0
  0
LINE
  8
ITEM_50
 10
450.3640130811998
 20
90.22679907369439
 30
0.0
 11
450.364013081185
 21
77.2267990736945
 31
0.0
  0
LINE
  8
ITEM_50
 10
457.5540130811997
 20
90.22679907369911
 30
0.0
 11
457.554013081185
 21
77.22679907369922
 31
0.0
  0
LINE
  8
ITEM_50
 10
446.7690130811774
 20
90.226799073692
 30
0.0
 11
461.1490130811772
 21
90.22679907370144
 31
0.0
  0
LINE
  8
ITEM_50
 10
446.7690130811861
 20
77.22679907369217
 30
0.0
 11
446.7690130811774
 21
90.226799073692
 31
0.0
  0
LINE
  8
ITEM_50
 10
461.1490130811861
 20
77.22679907370161
 30
0.0
 11
446.7690130811861
 21
77.22679907369217
 31
0.0
  0
LINE
  8
ITEM_50
 10
461.1490130811772
 20
90.22679907370144
 30
0.0
 11
461.1490130811861
 21
77.22679907370161
 31
0.0
  0
ARC
  8
ITEM_25
 10
451.5590130811847
 20
108.682296106919
 30
0.0
 40
5.099999999996839
 50
269.9999999999999
 51
298.0724869358531
  0
ARC
  8
ITEM_25
 10
451.5590130811847
 20
99.68229610692455
 30
0.0
 40
5.099999999996839
 50
61.92751306414677
 51
89.99999999999994
  0
ARC
  8
ITEM_25
 10
456.3590130811818
 20
99.68229610692452
 30
0.0
 40
5.099999999996839
 50
89.99999999999994
 51
118.072486935853
  0
ARC
  8
ITEM_25
 10
456.3590130811818
 20
104.1822961069217
 30
0.0
 40
0.5999999999996318
 50
0.0
 51
89.99999999999994
  0
ARC
  8
ITEM_25
 10
451.5590130811846
 20
104.1822961069218
 30
0.0
 40
0.5999999999996318
 50
89.99999999999994
 51
179.9999999999999
  0
ARC
  8
ITEM_25
 10
451.5590130811846
 20
104.1822961069218
 30
0.0
 40
0.5999999999996318
 50
179.9999999999999
 51
269.9999999999999
  0
LINE
  8
ITEM_50
 10
450.9590130811817
 20
98.22679907369672
 30
0.0
 11
450.9928325289964
 21
104.1822961069216
 31
0.0
  0
LINE
  8
ITEM_50
 10
456.9251936333671
 20
98.22679907369683
 30
0.0
 11
456.9590130811817
 21
104.1822961069216
 31
0.0
  0
ARC
  8
ITEM_50
 10
450.9590130811817
 20
95.72679907369669
 30
0.0
 40
2.5
 50
90.00000000000019
 51
180.0000000000002
  0
ARC
  8
ITEM_50
 10
456.9251936333672
 20
95.72679907369681
 30
0.0
 40
2.5
 50
359.2301342979778
 51
90.00000000000005
  0
LINE
  8
ITEM_50
 10
459.4249679559212
 20
95.69320835624279
 30
0.0
 11
459.3515130811987
 21
90.2267990737003
 31
0.0
  0
LINE
  8
ITEM_50
 10
450.9590130811816
 20
98.22679907369672
 30
0.0
 11
456.9251936333672
 21
98.22679907369683
 31
0.0
  0
LINE
  8
ITEM_50
 10
448.4590130811817
 20
90.22482470305527
 30
0.0
 11
448.4590130811817
 21
95.72679907369672
 31
0.0
  0
LINE
  8
ITEM_50
 10
15.50003274367973
 20
63.22679907369303
 30
0.0
 11
24.95901308118342
 21
63.226799073693
 31
0.0
  0
LINE
  8
ITEM_50
 10
28.95901308118341
 20
59.226799073693
 30
0.0
 11
28.95901308118341
 21
7.226799073693015
 31
0.0
  0
LINE
  8
ITEM_50
 10
24.95901308118341
 20
3.226799073693015
 30
0.0
 11
15.50003274367104
 21
3.22679907369303
 31
0.0
  0
ARC
  8
ITEM_50
 10
24.95901308118341
 20
59.226799073693
 30
0.0
 40
4.0
 50
0.0
 51
89.99999999999987
  0
ARC
  8
ITEM_50
 10
24.95901308118341
 20
7.226799073693015
 30
0.0
 40
4.0
 50
270.0
 51
0.0
  0
ARC
  8
ITEM_50
 10
-61.0409869188263
 20
7.226799073693015
 30
0.0
 40
4.0
 50
180.0
 51
270.0
  0
ARC
  8
ITEM_50
 10
-61.0409869188263
 20
59.226799073693
 30
0.0
 40
4.0
 50
90.00000000000012
 51
180.0
  0
LINE
  8
ITEM_50
 10
-61.0409869188263
 20
3.226799073693015
 30
0.0
 11
-51.58200658131393
 21
3.22679907369303
 31
0.0
  0
LINE
  8
ITEM_50
 10
-65.0409869188263
 20
59.226799073693
 30
0.0
 11
-65.0409869188263
 21
7.226799073693015
 31
0.0
  0
LINE
  8
ITEM_50
 10
-51.58200658132263
 20
63.22679907369303
 30
0.0
 11
-61.04098691882632
 21
63.226799073693
 31
0.0
  0
POINT
  8
ITEM_HILFE
 10
-18.04098691882144
 20
33.22679907369789
 30
0.0
  0
LINE
  8
ITEM_STPG
 10
30.17425725846668
 20
33.22679907369789
 30
0.0
 11
-66.16263458793015
 21
33.22679907369789
 31
0.0
  0
LINE
  8
ITEM_STPG
 10
-18.04098691882144
 20
81.86412083165285
 30
0.0
 11
-18.04098691882144
 21
-15.43523294757665
 31
0.0
  0
CIRCLE
  8
ITEM_50
 10
-18.04098691882144
 20
33.22679907369789
 30
0.0
 40
45.0
  0
CIRCLE
  8
ITEM_50
 10
-18.04098691882144
 20
33.22679907369789
 30
0.0
 40
43.0
  0
LINE
  8
ITEM_50
 10
-33.30288975835584
 20
85.66960932177894
 30
0.0
 11
-30.00450559352647
 21
76.60737330825551
 31
0.0
  0
LINE
  8
ITEM_50
 10
-40.05927970180813
 20
83.21048449127181
 30
0.0
 11
-36.76089553697705
 21
74.14824847774374
 31
0.0
  0
LINE
  8
ITEM_50
 10
-29.92469478660872
 20
86.89917173704009
 30
0.0
 11
-43.43747467351307
 21
81.98092207602593
 31
0.0
  0
LINE
  8
ITEM_50
 10
-26.47777657708321
 20
77.42884178964251
 30
0.0
 11
-29.92469478660872
 21
86.89917173704009
 31
0.0
  0
LINE
  8
ITEM_50
 10
-43.43747467351307
 20
81.98092207602593
 30
0.0
 11
-39.99055646398507
 21
72.51059212862057
 31
0.0
  0
ARC
  8
ITEM_25
 10
-40.73797418063078
 20
102.6033896255673
 30
0.0
 40
5.099999999996839
 50
261.9275130641468
 51
290.0
  0
ARC
  8
ITEM_25
 10
-37.65979289070175
 20
94.14615603849935
 30
0.0
 40
5.099999999996839
 50
110.0
 51
138.0724869358531
  0
ARC
  8
ITEM_25
 10
-42.17031747047134
 20
92.5044593505371
 30
0.0
 40
5.099999999996839
 50
81.92751306414687
 51
110.0
  0
ARC
  8
ITEM_25
 10
-43.70940811543597
 20
96.7330761440711
 30
0.0
 40
0.5999999999996318
 50
110.0
 51
199.9999999999999
  0
ARC
  8
ITEM_25
 10
-39.19888353566615
 20
98.37477283203344
 30
0.0
 40
0.5999999999996318
 50
19.99999999999995
 51
110.0
  0
ARC
  8
ITEM_25
 10
-39.19888353566615
 20
98.37477283203344
 30
0.0
 40
0.5999999999996318
 50
290.0
 51
19.99999999999995
  0
LINE
  8
ITEM_50
 10
-36.5981680143126
 20
92.98364830279581
 30
0.0
 11
-38.66684784874236
 21
98.56841798564084
 31
0.0
  0
LINE
  8
ITEM_50
 10
-42.20454385347763
 20
90.94309437523065
 30
0.0
 11
-44.27322368790727
 21
96.52786405807563
 31
0.0
  0
ARC
  8
ITEM_50
 10
-35.74311765599851
 20
90.63441675083103
 30
0.0
 40
2.5
 50
19.99999999999964
 51
109.9999999999997
  0
ARC
  8
ITEM_50
 10
-41.34949349516365
 20
88.59386282326585
 30
0.0
 40
2.5
 50
109.9999999999999
 51
200.769865702022
  0
LINE
  8
ITEM_50
 10
-43.68702427769973
 20
87.70732470186561
 30
0.0
 11
-41.74837718767027
 21
82.5957032836454
 31
0.0
  0
LINE
  8
ITEM_50
 10
-36.5981680143126
 20
92.98364830279581
 30
0.0
 11
-42.20454385347774
 21
90.9430943752306
 31
0.0
  0
LINE
  8
ITEM_50
 10
-31.51210004121277
 20
86.31930239330023
 30
0.0
 11
-33.39388610403365
 21
91.4894671091452
 31
0.0
  0
ENDSEC
  0
EOF
